semidetached semidetached
*

Desconectado deborah X

  • 7095
  • 246
Tab de Man of Mystery
« en: Mar, 21 de Ago del 2007, a las 18:31:07 »
han puesto en musewiki el tab de esta canción; ahí va, por si alguien quiere darle caña  :)

e|-12~-----------|-----------------------------|
B|-15b17~--------|-----------------------------|
G|---------------|-----------------------------|
D|---------------|-----------------------------|
A|---------------|-----------------------------|
E|-----------12\-|-0--0-0-0--0-0-0--0-0-0--0-0-|
                PM .  . . .  . . .  . . .  . .

e|-12------------|-----------------------------|
B|-15b17---------|-----------------------------|
G|---------------|-----------------------------|
D|---------------|-----------------------------|
A|---------------|-----------------------------|
E|-----------19\-|-0--0-0-0--0-0-0--0-0-0------|
                PM .  . . .  . . .  . . .


_____________________________________________________________________________
   [0:09]
_____________________________________________________________________________

e|---------------|-----------------|--------------|---------------|
B|---------------|-----------------|--------------|---------------|
G|--------10--9--|-------10p9-10p9-|-------10--9--|-------9p7-9p7-|
D|-7--10---------|-6--9------------|-5--8---------|-4--7----------|
A|---------------|-----------------|--------------|---------------|
E|---------------|-----------------|--------------|---------------|

e|-------------|---------------|
B|-------------|---------------|
G|----2--9--7--|----2--7p5-7p5-|
D|-3-----------|-2-------------|
A|-------------|---------------|
E|-------------|---------------|

Play the above section TWICE, the first timing ending with the last two bars
as:

e|-------------|---------------|
B|-------------|---------------|
G|-5--4--5--4--|-5--4--5p4-5p4-|
D|-------------|---------------|
A|-------------|---------------|
E|-------------|---------------|

And the second time ending with the last two bars as:

                    w/bar[1/2-step]
e|---------------|-------------|
B|---------------|--1-V-1------|
G|-5-4-3-4-5--4--|--2-V-2------|
D|---------------|--2-V-2------|
A|---------------|-------------|
E|---------------|-------------|


_____________________________________________________________________________
   [0:34]
_____________________________________________________________________________

e|----------------|---------------------|-------------------|
B|--------12--10--|--------12p10-12p10--|-------------------|
G|-7--10----------|-5--10---------------|-------------------|
D|----------------|---------------------|-6--5--4--3---/(9)-|
A|----------------|---------------------|-------------------|
E|----------------|---------------------|-------------------|

e|----------------|-------------1--1-1--|-------------------|
B|----------------|-------------3--2-3--|---------0-1--0-1--|
G|----------------|---------------------|---------2-2--2-2--|
D|----------------|--0--0-0-0-----------|-------------------|
A|--5-4-5-6-5-4-3-|---------------------|--0--0-0-----------|
E|----------------|---------------------|-------------------|
 PM . . . . . . .    .  . . .              .  . .
(heavy)

e|----------------|---------------------|-12----12----12----|
B|----------------|---------------------|-15b17-15b17-15b17-|
G|----------------|---------------------|-------------------|
D|----------------|-0--0-0-5/-----------|-------------------|
A|--2--2-2-2--2---|--------5/-----------|-------------------|
E|----------------|---------------------|-------------------|
 PM .  . . .  .     .  . .
(light)

_____________________________________________________________________________
   [0:46]
_____________________________________________________________________________

e|---------------|-----------------|--------------|---------------|
B|---------------|-----------------|--------------|---------------|
G|--------10--9--|-------10p9-10p9-|-------10--9--|-------9p7-9p7-|
D|-7--10---------|-6--9------------|-5--8---------|-4--7----------|
A|---------------|-----------------|--------------|---------------|
E|---------------|-----------------|--------------|---------------|

                                                  w/bar[1/2-step with vibrato]
e|-------------|---------------|---------------|-------------|
B|-------------|---------------|---------------|--1-V-1--/---|
G|----2--9--7--|----2--7p5-7p5-|-5-4-3-4-5--4--|--2-V-2--/---|
D|-3-----------|-2-------------|---------------|--2-V-2--/---|
A|-------------|---------------|---------------|-------------|
E|-------------|---------------|---------------|-------------|

_____________________________________________________________________________
   [0:58]
_____________________________________________________________________________

 w/bar[vibrato]------
e|-1~------------|-5~-------------|---------------|------------------------|
B|-1~------------|-5~-------------|---------------|-5---5----5---------(5)-|
G|-2~------------|-6~-------------|---------------|-7b9-7b9----7p5---5--7--|
D|-3~------------|-7~-------------|-/6--5--4--3---|----------------7-------|
A|---------------|----------------|---------------|------------------------|
E|---------------|----------------|---------------|------------------------|

 w/bar[vibrato]------
e|-1~------------|-5~-------------|---------7-----|
B|-1~------------|-5~-------------|-7-7-7-7---7---|
G|-2~------------|-6~-------------|-------------4/|
D|-3~------------|-7~-------------|---------------|
A|---------------|----------------|---------------|
E|---------------|----------------|---------------|

_____________________________________________________________________________
   [1:09]
_____________________________________________________________________________

e|---------------|------------|------------|------------|
B|---------------|------------|------------|------------|
G|---------------|------------|------------|------------|
D|---------------|------------|------------|------------|
A|-----------6-7-|--------6-7-|--------6-7-|------------|
E|-0--0-0-0------|-0-0-0------|-0-0-0------|-0-0-0--0---|
 PM.  . . .        . . .        . . .        . . .  .
(light)

_____________________________________________________________________________
   [1:12]
_____________________________________________________________________________

The solo-bit.

e|----12------12------12------|
B|-15---15b17---15b17---15b17-|
G|----------------------------|
D|----------------------------|
A|----------------------------|
E|----------------------------|


e|-12-------------------------------------------------|
B|----15-13-12-13-12----------------------------------|
G|-------------------14-12-14-12----------12-14p12h14-|
D|-------------------------------14-12-14----14-------|
A|----------------------------------------------------|
E|----------------------------------------------------|

e|-12--------12---------------|
B|-15b17--15---x-15p13---13---|
G|---------------------14--14-|
D|----------------------------|
A|----------------------------|
E|----------------------------|

_____________________________________________________________________________
   [1:18]
_____________________________________________________________________________

The solo continued... Don't play the higher notes in brackets very loudly if at all,
try and make them noticeable in the first bar though at least.

e|-------------------------|
B|-x-(14-14-12-14-12--14-x-|
G|-x--14-14-12-14-12--14-x-|
D|-------------------------|
A|-------------------------|
E|-------------------------|


e|----------------------------------------------------|
B|-14-14-12-14-12)-----------(12)---------------------|
G|-14-14-12-14-12-(14-12-14)--12----------12-14-12----|
D|-----------------14-12-14------------------------14-|
A|-------------------------------14-12-14-------------|
E|----------------------------------------------------|

e|-12---12------\----|
B|------15b17---\----|
G|-------------------|
D|-------------------|
A|-------------------|
E|-------------------|

_____________________________________________________________________________
   [1:24]
_____________________________________________________________________________

The riff again, except this time with a couple of changes... very small ones
mind you.

e|---------------|-----------------|--------------|---------------|
B|---------------|-----------------|--------------|---------------|
G|---------10--9-|-------10p9-10p9-|-------10--9--|-------9p7-9p7-|
D|(9)7--10-------|-6--9------------|-5--8---------|-4--7----------|
A|---------------|-----------------|--------------|---------------|
E|---------------|-----------------|--------------|---------------|

                                                  w/bar[1/2-step with vibrato]
e|-------------|---------------|---------------|-------------|
B|-------------|---------------|---------------|--1-V-1--/---|
G|----2--9--7--|----2--7p5-7p5-|-5-4-3-4-5--4--|--2-V-2--/---|
D|-3-----------|-2-------------|---------------|--2-V-2--/---|
A|-------------|---------------|---------------|-------------|
E|-------------|---------------|---------------|-------------|


e|---------------|-----------------|--------------|---------------|
B|---------------|-----------------|--------------|---------------|
G|--------10--9--|-------10p9-10p9-|-------10--9--|-------9p7-9p7-|
D|-7--10---------|-6--9------------|----8---------|-4--7----------|
A|---------------|-----------------|-7------------|---------------|
E|---------------|-----------------|--------------|---------------|
                                                 
e|-------------|---------------|---------------|--------16b18-|
B|-------------|---------------|---------------|--1-/---------|
G|----2--9--7--|----2--7p5-7p5-|-5-4-3-4-5--4--|--2-/---------|
D|-3-----------|-2-------------|---------------|--2-/---------|
A|-------------|---------------|---------------|--------------|
E|-------------|---------------|---------------|--------------|



y...

[youtube=424,336]RsmoRrOAGNY[/youtube]

« última modificación: Mar, 21 de Ago del 2007, a las 18:34:54 por deborah X »
IAMTerrified

*

Desconectado Biork

  • 1499
  • 46
  • I am a Knight of Cydonia
Re: Tab de Man of Mystery
« Respuesta #1 en: Mar, 21 de Ago del 2007, a las 19:24:48 »
Gracias debo!  :wink:

En un tiempo le daré caña... aunque es complicado  :lol:
- Explotó Glósóli!, qué genial! ^^
- ¿Sabes que no entendí nada? Ah si, creo que si. ¿Es una estrella? WTF! - No!! Es una canción de Sigur Rós!
-------------------- - Y yo me retiro a mis aposenos...    ???

Re: Tab de Man of Mystery
« Respuesta #2 en: Mar, 21 de Ago del 2007, a las 20:05:42 »
gracias, la verdad es que es dificililla

aqui dejo el tab de los shadows, q viene con posiciones más cómodas

-12----------------------12--------------------|-------1--0--------1--0--1----
-15b(17)-----------------15b(17)---------------|----1-----------0-------------
-----------------------------------------------|-2-----------1----------------
-----------------------------------------------|------------------------------
-----------------------------------------------|------------------------------
---------0x--0x--0x--0x----------0x--0x--0x--0x|------------------------------
                                                                             

-0--------1--0--------0-----0-----------0-------------------------------------
-------------------------3-----3-----------3--------3--1--3--1--1--0--1--0----
----0--3-----------2-----------------2-----------2----------------------------
----------------4-----------------3-----------2-------------------------------
------------------------------------------------------------------------------
------------------------------------------------------------------------------

                                   
-----------------------1--0-------1--0--1--0------1--0-----0---0-------0------
-1--0--1--0--1--0----1---------0-----------------------------3---3-------3----
-------------------2--------1----------------0--3--------2-----------2--------
-------------------------------------------------------4-----------3-------2--
------------------------------------------------------------------------------
------------------------------------------------------------------------------
                                                                             
                                w/bar bend
----------------------------------------------------7--5--------7--5--7--5----
----3--1--3--1--1--0-----0--1--0--1(0)(1)--------6-----------5----------------
-2--------------------3-----------2(1)(2)-----7-----------5-------------------
----------------------------------2(1)(2)-------------------------------------
------------------------------------------------------------------------------
------------------------------------------------------------------------------


------------------------------------------------------------------------------
------------------------------------------------3--3-----3--3-----3----1--1---
---------------------------------------------------2--2--2--2--2----2-----2---
-6--5--4--3--------------0x--1x--1x--0x------0--------------------------------
-------------0x--0x--3x------------------3x-----------------------------------
------------------------------------------------------------------------------
                               w/bar bend                                     

-------------------------------12(11)(12)|-------1--0----------1--0--1--0-----
----1-----1--------4--4------------------|----1-------------0-----------------
-------2--------4--4--4--4--4---9-(8)-(9)|-2-------------1-----------------0--
-2-----------0--4------------------------|------------------------------------
-----------------------------------------|------------------------------------
-----------------------------------------|------------------------------------
                                                                             

-----1--0--------0-----0-----------0------------------------------------------
--------------------3-----3-----------3--------3--1--3--1--1--0-----0--1--0---
--3-----------2-----------------2-----------2--------------------3------------
-----------4-----------------3-----------2------------------------------------
------------------------------------------------------------------------------
------------------------------------------------------------------------------
 w/bar bend  w/bar vibrato                                         w/bar vib 

------------|-5v-------0v-|---------------5-----------------------|-5v----0v--
-1(0)(1)----|-6v-------1v-|------------8-----5--------------------|-6v----1v--
-2(1)(2)----|-7v-------2v-|---------------------7p5-----7--5-----5|-7v----2v--
-2(1)(2)----|----------2v-|-6--5--4\2----------------7--------7---|-------2v--
------------|-------------|---------------------------------------|-----------
------------|-------------|---------------------------------------|-----------
                                                                             

----7-----------------------------------------------------|-----12------12----
-------7-----7--------------------------------------------|-15------15--------
-4--------4-----------------------------------------------|-------------------
----------------------------------------------------------|-------------------
----------------6/7--------6h7-----6h7-----6h7-----6h7----|-------------------
---------------------0--0-------0-------0-------0-------0-|-------------------
                                                       
                                                         #repick
-----12-------------------12-----------12-----------12---------------------12-
-15------15--13--15b(17)------15b(17)------15b(17)-----(#17)-(#17)r15--13--15-
------------------------------------------------------------------------------
------------------------------------------------------------------------------
------------------------------------------------------------------------------
------------------------------------------------------------------------------
                                       
                                         #repick
-----12--------------12------12--12--12--------------12-----------------------
-15-----13------15---13------15b(17)----(#17)r(15)---13---------------12------
-------------14----------14-------------------------------14--12------12------
------------------------------------------------------------------14----------
------------------------------------------------------------------------------
------------------------------------------------------------------------------
                                                                             

------------------------------------------------------------------------------
-14p12------14--14p12------14--14p12------14--14p12------14--14p12------14----
-14p12--12------14p12--12------14p12--12------14p12--12------14p12--12--------
------------------------------------------------------------------------------
------------------------------------------------------------------------------
------------------------------------------------------------------------------
                                                                             

--------------------------------------------------------------------12--------
-14p12------14--14p12------14--14p12----------12------14---12-------12--------
-14p12--12------14p12--12------14p12--12------12------14---12--12v------------
------------------------------------------14------14-----------14v------------
------------------------------------------------------------------------------
------------------------------------------------------------------------------
                                                                             

----------12|-------1--0--------1--0--1--0--------1--0--------0-----0---------
-15b(17)----|----1-----------0-----------------------------------3-----3------
------------|-2-----------1-----------------0--3-----------2------------------
------------|-------------------------------------------4---------------------
------------|-----------------------------------------------------------------
------------|-----------------------------------------------------------------
                                                                             

-------0---------------------------------------------------------1--0---------
----------3--------3--1--3--1--1--0-----0--1--0---------------1-----------0---
----2-----------2--------------------3-----------2---------2-----------1------
-3-----------2-----------------------------------2--2--2----------------------
----------------------------------------------------2--2----------------------
------------------------------------------------------------------------------
 

-1--0--1--0--------1--0--------0-----0-----------0---------------------------
----------------------------------3-----3-----------3--------3--1--3--1--1---
-------------0--3-----------2-----------------2-----------2------------------
-------------------------4-----------------3-----------2---------------------
-----------------------------------------------------------------------------
-----------------------------------------------------------------------------
                                                                             
            w/bar bend
---------------------------12------------------------------------------------
-0-----0--1---1(0)---------15b(17)-------------------------------------------
----3---------2(1)-----------------------------------------------------------
--------------2(1)-----------------------------------------------------------
-----------------------------------------------------------------------------
-----------------------------------------------------------------------------

:)
When I get sad, I stop being sad and be awesome instead. True story.
- Barney Stinson

 

TinyPortal © 2005-2012